Quantcast

Guitar chords and tabs

skrobi90

Zainteresovan član
Poruka
280
E, ajde neka svako stavi akorde ili tabove svojih omiljenih pesama...
Guitar Tabs by: Red Hot Chili Peppers
Tabs for song: Can Stop
#----------------------------------PLEASE NOTE----------------------------------#
# This file is the author's own work and represents their interpretation of the #
# song. You may only use this file for private study, scholarship, or research. #
#-------------------------------------------------------------------------------#



Hi, this is my first tab so don't rely on it being 100% correct but it sounds pretty much correct to me, the solol may be a little sketchy. This is a great song, but I was tired of seeing people tab it wrong so I decided to give it a try.

b-bend

INTRO

e-------------------------------------------------------|
B-------------------------------------------------------|
G-------------------------------------------------------|8x
D-------------------------------------------------------|
A----7-9--7-9--7-9--7-9--7-9----------------------------|
E-------------------------------------------------------|


VERSE
There are two ways to play this.

Way 1
e-------------------------------------------------------
B-------------------------------------------------------
G--------7-9-------7-9---------7-9-------7-9------------
D----------------------------0-----0-0-0-----0-0-0------
A----7-7-----7-7-7-----7-7-7----------------------------
E-------------------------------------------------------

e-------------------------------------------------------
B-------------------------------------------------------
G---7-9--------7-9---------7-9--------7-9---------------
D-------------------------------------------------------
A-------------------------------------------------------
E-7------7-7-7-----7-7-7-8------8-8-8-------8-8-8-------

OR
Way 2
e-------------------------------------------------------
B-------------------------------------------------------
G------7-9-------7-9---------7-9-------7-9--------------
D-------------------------------------------------------
A--7-7-----7-7-7-----7-7-7-5-----5-5-5-----5-5-5--------
E-------------------------------------------------------

e-------------------------------------------------------
B-------------------------------------------------------
G---7-9-------7-9---------7-9--------7-9----------------
D-------------------------------------------------------
A-------------------------------------------------------
E-7-----7-7-7-----7-7-7-8-----8-8-8------8-8-8----------

Chorus

G D Bm C

(listen to the song to get it right.)

Bridge

e|-12-12-12---10-10-10---7-7-7---8-8-8-10-|
B|-12-12-12---10-10-10---7-7-7---8-8-8-10-|
G|-12-12-12---11-11-11---7-7-7---9-9-9-11-|
D|----------------------------------------|
A|----------------------------------------|
E|----------------------------------------|

Solo

e----12b--12---------------------------
B-------------15--15--12--12-----------
G---------------------------------12---
D--------------------------------------
A--------------------------------------
E--------------------------------------

e---12--14b--------12---------------------
B-------------15------12--15--------------
G----------------------------------14-12--
D-----------------------------------------
A-----------------------------------------
E-----------------------------------------
 

skrobi90

Zainteresovan član
Poruka
280
Guitar Chords by: Avril Lavigne
Chords for song: Nobodys Home
#----------------------------------PLEASE NOTE----------------------------------#
# This file is the author's own work and represents their interpretation of the #
# song. You may only use this file for private study, scholarship, or research. #
#-------------------------------------------------------------------------------#



Nobody's Home by Avril Lavigne
tabbed by benjis_girl64 bernie_mccannuk@hotmail.com
Dont know if this is correct but here it is anyways!
+ i cant get the bit at the start!!


G D C
I couldn't tell you why she felt that way,
She felt it everyday.
G D
And I couldn't help her,
C
I just watched her make the same mistakes again.


Em
What's wrong, what's wrong now?
G
Too many, too many problems.
D C
Dont know where she belongs, where she belongs.
G D C
She wants to go home, but nobody's home.

Its Where she lies, broken inside.
G D C
There's no place to go, no place to go to dry her eyes.
Broken inside.


^^^^^
SAME AS 1ST VERSE!!!!!
Open your eyes and look outside, find a reason why.
You've been rejected, and now you can't find what you left behind.
Be strong, be strong now.
Too many, too many problems.
dont know where she belongs, where she belongs.
She wants to go home, but nobody's home.
It's where she lies, broken inside.
With no place to go, no place to go to dry her eyes.
Broken inside.

C G
Her feelings she hides.
D
Her dreams she can't find.
C
shes losing her mind
G
She's fallen behind.
D
She can't find her place.
C
She's losing her faith
G
She's fallen from grace.
D
She's all over the place.

G D C
She wants to go home, but nobody's home.
Where she lies, broken inside.
G D C
There's no place to go, no place to go to dry her eyes.
Broken inside.

G D C
She's lost inside, lost inside...oh oh.
G D C G
She's lost inside, lost inside...oh oh yeah.
 

skrobi90

Zainteresovan član
Poruka
280
Notes:
() Or [] Notes in brackets don’t need to be played
\ = Legato slide, strike first note and slide to next note
without striking anything else
h = hammer on
p = pull off
v = vibrato
s = slide

Tuning: standard low 2 high EADGBE

RIFF A
F C Dm C
E------------------------------|------------------------|
B----10----10---10---10-----8--|------------------------|
G------------------------------|---9\10--12P10----12P10-|
D------------------------------|------------------------|
A--8-----8----8-----8----8-----|------------------------|
E------------------------------|--(8\10)----------------|

VERSE
PLAY RIFF A
THEN
F C5 D5
E---------------8---|----------------------------------|
B---10---10--10--8--|--8\10--------------10------------|
G-------------------|------------------------12--10--9-|
D-------------------|----------------------------------|
A—8----8----8-------|----------------------------------|
E---------------(8)-|--(8\10)—--10--—10----------------|

CHORUS
RHY. FIG 1
E-1-1-1-1-1-1-1--1-1---|-------------------------|
B-1-1-1-1-1-1-1--1-1-5-|--6-6-6-6---6-6-6-6--5---|
G-2-2-2-2-2-2-2--2-2-5-|--7-7-7-7---7-7-7-7--5---|
D-3-3-3-3-3-3-3--3-3-5-|--7-7-7-7---7-7-7-7--5---|
A-3-3-3-3-3-3-3--3-3-3-|5-5-5-5-5---5-5-5-5--3---|
E-1-1-1-1-1-1-1--1-1---|-------------------------|
HERE YOU CAN JUST PLAY FIFTH CHORDS (F5 C5 D5)




RHY.FIG. 2
E-1-1-1-1-1-1-1--1-1---|------------------------|
B-1-1-1-1-1-1-1--1-1-5-|--6-6-6-6--6-6-6-6------|
G-2-2-2-2-2-2-2--2-2-5-|--7-7-7-7--7-7-7-7------|
D-3-3-3-3-3-3-3--3-3-5-|--7-7-7-7--7-7-7-7------|
A-3-3-3-3-3-3-3--3-3-3-|5-5-5-5-5--5-5-5-5-7----|
E-1-1-1-1-1-1-1--1-1---|-------------------8----|

VERSE
RIFF A

THEN
F C5 D5 C5
E-----------------10--8-|------------13--12--10--------|
A----10--10--10-------8-|-8\10---10-------------13-----|
G-----------------------|------------------------0-----|
D-----------------------|------------------------------|
A--8----8---8---8-------|------------------------------|
E-----------------------|-(8\10)--(10)-(10)-----(10)(8)|

CHORUS
RHY. FIG. 1 x2
INTERLUDE comes in straight after the last C5
Dm C Dm Em
E-------|------------|----------|--------|-------------|
B-13\10-|-10-(10)----|-10\8--8--|--8\10--|-10-10\12\13-|
G-------|------------|----------|--------|-------------|
D-------|------------|----------|--------|-------------|
A-------|------------|----------|--------|-------------|
E-------|------------|----------|--------|-------------|

VERSE
F C Dm C
E----------------------|--------------------------------|
B---10--10--10---10----|--------------------------------|
G-------------------9--|-9\10--10---10--10--12P10-12P10-|
D----------------------|--------------------------------|
A—8----8---8----8------|--------------------------------|
E-------------------8--|(8\10)----10---10--------------8|

F C5 D5
E--------------8------|-------------------------------|
B---10--10--10---8--8-|-8\10---10--12--13--12--10-----|
G---------------------|-------------------------------|
D---------------------|-------------------------------|
A—8----8---8---8------|-------------------------------|
E---------------------|-(8\10)-----------------10—10--|

CHORUS
RHY. FIG. 1
RHY. FIG. 2

VERSE

RIFF A

THEN
E-----------------8-----|--------------12--10-----------|
B---10---10--10------8--|-8\10---10-----------13---10---|
G-----------------------|-------------------------------|
D-----------------------|-------------------------------|
A—8----8----8---8-------|-------------------------------|
E-------------------(8)-|-(8\10)-(10)-------------------|


CHORUS

RHY. FIG. 1 x3
THE THIRD TIME ISN'T RHY.FIG.1 BUT THE VARIATION IS
VERY MINOR SO ITS ALL THE SAME AND IM LAZY.
BUT ALL IT DOES IS LEAVE OUT THE ‘C’, SO THE LAST CHORD OF THE 3RD RHY. FIG IS A ‘D’

GUITAR SOLO
D5 C5
E------------------------|---------------|--------------|
B--(13)\15----15\13--13\-|10--------10\8-|--8---13\--10-|
G------------------------|---------------|--------------|
D------------------------|---------------|--------------|
A------------------------|---------------|--------------|
E------------------------|---------------|--------------|

D5
E----------|-----------------------|-------------------|
B(10)------|-(13)\15-------17---13\|10-10--(10)\13\8---|
G----------|-----------------------|-------------------|
D----------|-----------------------|-------------------|
A----------|-----------------------|-------------------|
E----------|-----------------------|-------------------|

C5 D5 E5
E-------------------------|-----------------------------|
B---8----------13\----10--|------------15\17----17\18---|
G-------------------------|-----------------------------|
D-------------------------|-----------------------------|
A-------------------------|-----------------------------|
E-------------------------|-----------------------------|


VERSE
F C Dm C5
E---------------------|-------------------------------|
B------10---10--10----|---------10------------------8-|
G------------------9--|-9\10--------------------------|
D---10----------------|-------------------------------|
A—8—------8----8------|-------------------------------|
E------------------8--|-(8\10)-----10-10---10-10-10-8-|




F C5 D5
E---------------------8------|--------------------------|
B—8\10--10—10-10---10---8-8--|-8\10-----10---10—8-6-5---|
G----------------------------|--------------------------|
D----------------------------|--------------------------|
A-------(8)----(8)-----------|--------------------------|
E-------------------------8--|-(8\10)---10--------------|

CHORUS
RHY. FIG 1 x2
RHY. FIG 3 x1 (REMEMBER HOW 2 PLAY IT?)

FINAL SOLO

E-----17---17---|-------------17--------|---------------|
B—(20)---20—-20v|vvvvvvvv-(20)--17—17vvv|vvvvvv—17\18s15|
G---------------|-----------------------|---------------|
D---------------|-----------------------|---------------|
A---------------|-----------------------|---------------|
E---------------|-----------------------|---------------|

E--------------------------|----------------------------|
B-15—-15\13--13/15—-15\13--|--13\15—15----15\13—13|\10--|
G--------------------------|----------------------------|
D--------------------------|----------------------------|
A--------------------------|----------------------------|
E--------------------------|----------------------------|

E------|------------|-------|
B—13\\\|8-----13\\\\|10-----|
G------|------------|-------|
D------|------------|-------|
A------|------------|-------|
E------|------------|-------|


E-----------------|------------|------------------------|
B-----------------|------------|------------------------|
G--------------14-|-----14—14--|----14------------------|
D----12/14\12-----|------------|--------14\12---14\\10—-|
A-----------------|------------|------------------------|
E-----------------|------------|------------------------|

E-----------------|-------------|-----------------------|
B-----------------|---------18\\|17—17—-12/13\12/15--10-|
G-----------------|--14---------|-----------------------|
D—10---10/12------|-------------|-----------------------|
A------------12---|-------------|-----------------------|
E-----------------|-------------|-----------------------|

E----------------|-------------|
B—13\10\8-----8//|10vvvvvvvv---|
G----------------|-------------|
D----------------|-------------|
A----------------|-------------|
E----------------|-------------|

(Sorry too damn lazy too add rhythm chords)

So there it is! RHCP all 100%.
 
Poruka
3.666
MSG - Into The Arena


------------------------------------------7----------------7h10p7h10p7-------|
-9-9-9--9-9-9--9-9-9--9-9-9--7---------------10-10-10-10~--------------------|
-9-9-9--9-9-9--9-9-9--9-9-9--7-9p7----7h8------------------------------------|
-----------------------------------9-----------------------------------------|
-----------------------------------------------------------------------------|
-----------------------------------------------------------------------------|


------------------------------------------------------------------------------|
-------12--------10-------12--------10--------12--12--10--9-----7-------------|
-11/13-13--13\11-11-11/13-13--13\11-11--11/13-13--13--11--9-----7h8-----------|
--------------------------------------------------------------------9-7-------|
------------------------------------------------------------------------9-8-9-|
------------------------------------------------------------------------------|

===========2x=================
-------------------------------7-------------------10----10-----10----10----10-|
-------------------------7h8-----7--10/12-12~---13----13----13-----13----13----|
--------------------7--9-------------------------------------------------------|
--7----------------------------------------------------------------------------|
----9\7-5-----5-7/9------------------------------------------------------------|
----------7--------------------------------------------------------------------|


------------------------------------------------------------------------10---|
-15-15---12-12-12----------------10----10----10----10----10----10------------|
---------12-12-12p10-12p10----11----12----13----14----13----12----10h11------|
---------------------------12------------------------------------------------|
-----------------------------------------------------------------------------|
-----------------------------------------------------------------------------|


--------------12-12-x-------10-----------------10-12-12-x------10----10-------|
--12p10----10------------10-----13-13-x-----10--------------13----------13-10-|
--------11------------11-----------------11-----------------------12----------|
------------------------------------------------------------------------------|
------------------------------------------------------------------------------|
------------------------------------------------------------------------------|

2.================
----10-----------------------------||----------------------------------------|
-------13--------------------------||----------------------------------------|
-12-------12--10------------------o||-14h17p17----14h17p14----14h17p14-------|
-----------------12---------------o||----------17----------17----------17----|
-----------------------------------||----------------------------------------|
---------------------------0-2-----||----------------------------------------|


-----------------------------------------------------------------------------|
-----------------------------------------------------------------------------|
--14h17p14----14h17p14----14h17p14-----14h17p14----14h17p14----14h17p14------|
-----------17----------17----------17-----------17----------17----------17---|
-----------------------------------------------------------------------------|
-----------------------------------------------------------------------------|


-----------------------------------------------------------------------------|
-----------------------------------------------------------------------------|
--14h17p14-------14h17p14--------14tr17---16tr19---14tr17--13tr16---12tr15---|
-----------17-------------17p14----------------------------------------------|
-----------------------------------------------------------------------------|
-----------------------------------------------------------------------------|


-----------------------------------------------------------------------------|
-----------------------------------------------------------------------------|
--11tr14\---x---------------------------------------------------------12-----|
--------------x------------------9------10-------10---------12-14/16---------|
--------------------3------5-7/9---9/12----12/14----12---14---------------14-|
------------------5---5/7----------------------------------------------------|


----------------------------17-22-22-22-22-22\-------------------------------|
-------------------------19--------------------------------------------------|
----------14-------16-19-----------------------------------------------------|
-12-14/16----16/19-----------------------------------------------------------|
-----------------------------------------------------------------------------|
-----------------------------------------------------------------------------|
 

skrobi90

Zainteresovan član
Poruka
280
Sweet Child O' Mine (Guns 'n' Roses)
Tune down half step
Intro:

D C
e:|--------------15----14-----|--------------15----14-----|
B:|-----15--------------------|-----15--------------------|
G:|:-------14-12----14----14-:|:-------14-12----14----14-:|
D:|--12-----------------------|--14-----------------------|
A:|---------------------------|---------------------------|
E:|---------------------------|---------------------------|

G D
e:|--------------15----14-----|--------------15----14-----|
B:|-----15--------------------|-----15--------------------|
G:|:-12----14-12----14----14-:|:-------14-12----14----14-:|
D:|---------------------------|--12-----------------------|
A:|---------------------------|---------------------------|
E:|---------------------------|---------------------------|
Chorus:
A C
e:|---------------------------|--------------12----10-----|
B:|--14-14-------15----14-----|--13-13--------------------|
G:|--------14-------14----14--|--------12-10----12----12--|
D:|-----------14--------------|---------------------------|
A:|---------------------------|---------------------------|
E:|---------------------------|---------------------------|

D D
e:|--------------15----14-----|--------------15---14-----|
B:|-----15--------------------|-----15-------------------|
G:|--------14-12----14----14--|--------14-12---14----14--|
D:|--12-----------------------|--12----------------------|
A:|---------------------------|--------------------------|
E:|---------------------------|--------------------------|


A C
e:|---------------------------|--------------12----10-----|
B:|--14-14-------15----14-----|--13-13--------------------|
G:|--------14-------14----14--|--------12-10----12----12--|
D:|-----------14--------------|---------------------------|
A:|---------------------------|---------------------------|
E:|---------------------------|---------------------------|


D D
e:|---------------------------|---------------------------|
B:|--------15-----------------|---------------------------|
G:|--12s14--------------------|---------------------------|
D:|---------------------------|---------------------------|
A:|---------------------------|---------------------------|
E:|---------------------------|---------------------------|

Solo:
|-17^--hold----15--14--h15p14-----------15--14--h15p14-----------12--14-|
|-----------------------------17-----------------------17-16------------|
|-----------------------------------------------------------------------|
|-----------------------------------------------------------------------|
|-----------------------------------------------------------------------|
|-----------------------------------------------------------------------|

|-----------------------------------------------------------------------|
|--15^--12----------------------------------------13-12-------h13p12\10-|
|----------14^--12--11h12----------------11-12-14-----------------------|
|-----------------------------14-----14---------------------------------|
|-----------------------------------------------------------------------|
|-----------------------------------------------------------------------|

|---------------------------------------------15^-----------------------|
|--13^-----13-----12--12-(12)-------12^----------------7^^--------------|
|-----------------------------------------14-----------------9--9-------|
|-----------------------------------------------------------------------|
|-----------------------------------------------------------------------|
|-----------------------------------------------------------------------|

|-----------------------------------------------------------------------|
|-----7^----------------------------------------------------------------|
|----------9--9-----8^----8/11---------11^---9-----------------9--------|
|-----------------------------------------------9^---7---9--------------|
|-----------------------------------------------------------------------|
|-----------------------------------------------------------------------|

|-----------------------------------------------------------------------|
|--------7h8--p7---------------------------------------------7^---7-10^-|
|----------------------9------8^-----8------/11-----9^--8-9-----9-------|
|-----------------------------------------------------------------------|
|-----------------------------------------------------------------------|
|-----------------------------------------------------------------------|

|-7-8p7-11p7-8-11-12/14-11-12--14/15-12-14-15p14-12----14p11-12h14p12---|
|---------------------------------------------------15----------------15|
|-----------------------------------------------------------------------|
|-----------------------------------------------------------------------|
|-----------------------------------------------------------------------|
|-----------------------------------------------------------------------|
w/wah wah
|-17--------------------------------------------------------------------|
|----15^---15^---15^---15^---15^-p12-----15^----15^--------15^-p12------|
|------------------------------------14----------------------------14---|
|-----------------------------------------------------------------------|
|-----------------------------------------------------------------------|
|-----------------------------------------------------------------------|

|----------------------------------15-----------------------------------|
|--17^---17^--------17^----17^----------17^---------17^-p15--15h17------|
|-------------------17^-------------------------------------------------|
|-----------------------------------------------------------------------|
|-----------------------------------------------------------------------|
|-----------------------------------------------------------------------|

|-----------12----------------------------------------------------------|
|-15^------------15---12------------------------------------------------|
|---------------------------14^-p12-14---12-14----12--14^----12--14--12-|
|-----------------------------------------------------------------------|
|-----------------------------------------------------------------------|
|-----------------------------------------------------------------------|

|----15-------------15-----15-----15------------------------------------|
|----15-------15----15-----15-------15----------------------------------|
|-14^--14--12-14^-----14^----14^------14^-p12----14p12--x-x----12^------|
|---------------------------------------------14--------x-x-------------|
|-----------------------------------------------------------------------|
|-----------------------------------------------------------------------|

|-----------------------------------------------------------------------|
|-----------------------------------------------------------------------|
|-----------------12h14p12----12^--------------------12h14p12-----12-12-|
|-14p12-14----x-x----------14--------14p12-14----x-x----------14--------|
|-----------------------------------------------------------------------|
|-----------------------------------------------------------------------|

|----------------------------------------------12-12-------15-15p12--15-|
|-------------------12-12-------15-15p12-------------15p12--------------|
|-------14-14p12-14-------14p12-----------------------------------------|
|-14p12-----------------------------------------------------------------|
|-----------------------------------------------------------------------|
|-----------------------------------------------------------------------|

|-14----12h15p12---------12-----------12-----------12-----------12------|
|----15----------15--15^----15p12--------15p12-15^----15p12--------15p12|
|----------------------------------14^-----------------------14^--------|
|-----------------------------------------------------------------------|
|-----------------------------------------------------------------------|
|-----------------------------------------------------------------------|

|------12-----------12-----------12--------------12-------15^-----------|
|--15^----15p12--------15p12-15^----15p12-----12----15p12---------------|
|---------------14^-----------------------14^---------------------------|
|-----------------------------------------------------------------------|
|-----------------------------------------------------------------------|
|-----------------------------------------------------------------------|

|--------------------15------12h15p12----12------12---------------------|
|-------------------------------------15-----15^-----15p12--------------|
|-----------------------------------------------------------14^-p12-14^-|
|-----------------------------------------------------------------------|
|-----------------------------------------------------------------------|
|-----------------------------------------------------------------------|

|---------------------------------------------------|
|-------15------------------------------------------|
|----------14^-p12-14^----14p12--------------12-----|
|----------------------14-------14------------------|
|---------------------------------------------------|
|---------------------------------------------------|
 

Hesse

Aktivan član
Poruka
1.822
Ovaj tab za sweet child...je bez glavnog sola, koji je svojevremeno bio uvršten u "Ten best rock soles" po guitar magazinima...bilo bi lepo objaviti tablature za njega...ja imam po časopisima, ali ne mogu da prebacim na komp...
 

skrobi90

Zainteresovan član
Poruka
280
Motorhead
A C E O F S P A D E S

INTRO: - bass arr. for guitar play 4x
|------------------------------------------------|
|------------------------------------------------|
|------------------------------------------------|
|--2----2--2----2--2--2--2----2---2---2----0-----|
|------------------------------------------------|
|------------------------------------------------|

guitar
MAIN RIFF: E5 E5
|------------------------------------|------------------------------------|
|------------------------------------|------------------------------------|
|------------------------------------|------------------------------------|
|---------------------9-----8-----7--|---------------------9-----8-----7--|
|---------------------7-----7-----7--|---------------------7-----7-----7--|
|--0--0---0--0--0--0-----0-----0-----|--0--0---0--0--0--0-----0-----0-----|

E5 E5 (end MAIN RIFF)
|------------------------------------|------------------------------------|
|------------------------------------|------------------------------------|
|------------------------------------|------------------------------------|
|---------------------9-----8-----7--|---------------------9-----8-----7--|
|---------------------7-----7-----7--|---------------------7-----7-----7--|
|--0--0---0--0--0--0-----0-----0-----|--0--0---0--0--0--0-----0-----0-----|

VERSE RIFF 1:
if you like to gamble, I tell you I'm your man
G5
|--------------------------|----------------------------|
|--------------------------|----------------------------|
|--------------------------|----------------------------|
|-----5--------------------|--(5)-----------------------|
|-----5--------------------|--(5)-----------------------|
|--0--3--------------------|--(3)-----------------------|

(end VERSE RIFF 1)
you win some, loose some, it's all the same to me
G5
|--------------------------|----------------------------|
|--------------------------|----------------------------|
|--------------------------|----------------------------|
|-----5--------------------|--(5)-----------------------|
|-----5--------------------|--(5)-----------------------|
|--0--3--------------------|--(3)-----------------------|

MAIN RIFF w/ FILL 1

FILL 1:
|----10---10--------------|----10---10--------------|
|----10^--10--8-----8-----|----10^--10--8-----------|
|----------------9--------|----------------9--------|
|-------------------------|-------------------------|
|-------------------------|-------------------------|
|-------------------------|-------------------------|

(end FILL 1)
|----10---10--------------|----10---10--------------|
|----10^--10--8-----8-----|----10^--10--8-----------|
|----------------9--------|----------------9--------|
|-------------------------|-------------------------|
|-------------------------|-------------------------|
|-------------------------|-------------------------|

VERSE RIFF 2: (end VERSE RIFF 2)
the pleasure is to play it makes no difference what you say
D5 C5
|------------------------|---------------------------------|
|------------------------|---------------------------------|
|--7---------------------|--5------------------------------|
|--7---------------------|--5------------------------------|
|--5---------------------|--3------------------------------|
|------------------------|---------------------------------|

MAIN RIFF (first 2 measures only) with FILL 1 (first 2 measures only)

VERSE RIFF 2
I don't share your greed the only card I need is the
D5 C5
|------------------------|-------------------------------------------|
|------------------------|-------------------------------------------|
|--7---------------------|--5----------------------------------------|
|--7---------------------|--5----------------------------------------|
|--5---------------------|--3----------------------------------------|
|------------------------|-------------------------------------------|


CHORUS:
Ace of Spades the Ace of Spades (end CHORUS)
|------------------------------------|------------------------------------|
|------------------------------------|------------------------------------|
|------------------------------------|------------------------------------|
|---------------------9-----8-----7--|---------------------9-----8-----7--|
|---------------------7-----7-----7--|---------------------7-----7-----7--|
|--0--0---0--0--0--0-----0-----0-----|--0--0---0--0--0--0-----0-----0-----|


MAIN RIFF w/ palm mute: (only first two measures)
|------------------------------------|------------------------------------|
|------------------------------------|------------------------------------|
|------------------------------------|------------------------------------|
|---------------------9-----8-----7--|---------------------9-----8-----7--|
|---------------------7-----7-----7--|---------------------7-----7-----7--|
|--0--0---0--0--0--0-----0-----0-----|--0--0---0--0--0--0-----0-----0-----|
PM.............................. PM..............................

VERSE RIFF 1
playing for the high one, dicing with the devil
going with the flow, it's all a game to me

MAIN RIFF w/ FILL 1

VERSE RIFF 2
seven or eleven, snake eyes watchin' you

MAIN RIFF (first 2 measures only) with FILL 1 (first 2 measures only)

VERSE RIFF 2
double up or quit, double stake or split

CHORUS
the Ace of Spades
the Ace of Spades

MAIN RIFF w/ palm mute

BRIDGE:
you know I'm born to loose and gambling's for fools
E5 D5 E5
|-------------------------------|----------------------------------------|
|-------------------------------|----------------------------------------|
|---9------------------------7--|--9-------------------------------------|
|---9------------------------7--|--9-------------------------------------|
|---7------------------------5--|--7-------------------------------------|
|-------------------------------|----------------------------------------|

but that's the way I like it baby, I don't want to live forever
N.C. E5
|--------------------------------|-----------------------------|
|--------------------------------|-----------------------------|
|--------------------------------|---9--9--9--9---9--9--9--9---|
|--------------------------------|---9--9--9--9---9--9--9--9---|
|--------------------------------|---7--7--7--7---7--7--7--7---|
|--------------------------------|-----------------------------|

and don't forget the Joker
D5 E5 D5 C5 B5
|--------------|------------------|-----------|---------------------------|
|--------------|------------------|-----------|---------------------------|
|--7-----------|--(7)----9--7--5--|--4--------|-(4)-----------------------|
|--7-----------|--(7)----9--7--5--|--4--------|-(4)-----------------------|
|--5-----------|--(5)----7--5--3--|--2--------|-(2)-----------------------|
|--------------|------------------|-----------|---------------------------|

RHYTHM BEHIND GUITAR SOLO: play 4x
A5 G5 A5 G5 A5 G5 A5 G5
|----------------------------------|-------------------------------------|
|----------------------------------|-------------------------------------|
|--2--2--2------0--2--2--2------0--|--2--2--2------0--2--2--2------0-----|
|--2--2--2------0--2--2--2------0--|--2--2--2------0--2--2--2------0-----|
|--0--0--0---------0--0--0---------|--0--0--0---------0--0--0------------|
|----------------------------------|-------------------------------------|

play 4x
B5 A5 B5 A5 B5 A5 B5 A5
|----------------------------------|-------------------------------------|
|----------------------------------|-------------------------------------|
|--4--4--4------2--4--4--4------2--|--4--4--4------2--4--4--4------2-----|
|--4--4--4------2--4--4--4------2--|--4--4--4------2--4--4--4------2-----|
|--2--2--2---------2--2--2---------|--2--2--2---------2--2--2------------|
|----------------------------------|-------------------------------------|

play 4x (end RHYTHM)
A5 G5 A5 G5 A5 G5 A5 G5
|----------------------------------|-------------------------------------|
|----------------------------------|-------------------------------------|
|--2--2--2------0--2--2--2------0--|--2--2--2------0--2--2--2------0-----|
|--2--2--2------0--2--2--2------0--|--2--2--2------0--2--2--2------0-----|
|--0--0--0---------0--0--0---------|--0--0--0---------0--0--0------------|
|----------------------------------|-------------------------------------|

MAIN RIFF

VERSE RIFF 1
pushing up the ante, I know you've got to see me
read 'em and weep, the dead man's hand again

MAIN RIFF w/ FILL 1

VERSE RIFF 2
I see it in your eyes, take one look and die

MAIN RIFF (first 2 measures only) with FILL 1 (first 2 measures only)

VERSE RIFF 2
the only thing you see, you know it's gonna be

CHORUS
the Ace of Spades
the Ace of Spades

MAIN RIFF w/ palm mute
 

skrobi90

Zainteresovan član
Poruka
280
Jet - Are You Gonna Be My Girl

Bass intro
---------------------------------------------------
---------------------------------------------------
---------------------------------------------------
---------------------------------------------------
-----------------------5---------------------------
-5-5-5-3--5-5----0h3h5----5-5-5-3--5-5----0h3h5--3-


-----------------------------------------------
-----------------------------------------------
-----------------------------------------------
-----------------------------------------------
-----------------------5-----3-5--5--3---------
-5-5-5-3--5-5----0h3h5-----5------------5-5----

Guitar - Riff 1
-----------------------------------------------
-----5--7---7b--5------------------------------
-----5--7---7b--5------------------------------
--7----------------7-7--5----------------------
-----------------------------------------------
-----------------------------------------------

Riff 2
-------------(strum up and down)---------------
--------------2-2-2-2--------------------------
-2-2-2-0-2-2--2-2-2-2--------------------------
-2-2-2-0-2-2--2-2-2-2--------------------------
-0-0-0---0-0--0-0-0-0--------------------------
-----------------------------------------------

Riff 3
-----------------------------------------------
-----------------------------------------------
--7--7--7--7-7--5------------------------------
--7--7--7--7-7--5------------------------------
--5--5--5--5-5--3------------------------------
-----------------------------------------------

- Bass Intro
- Riff 1
- Riff 2
- Riff 1
- Verse

Verse:
Well it's a one, two, three, take my hand and come with me, ebcause you look so fine that I really wanna make you mine (Riff 2)
I said you look so fine that I really wanna make you mine (Riff 2)
A four five six, come on and get your kicks, now you don't need money when you look like that do ya honey (Riff 2)

- Riff 1

Bridge:
D D C + Riff 3
Big black boots,
Long brown hair,
She's so sweet,
With her get back stare

Chorus:
A C D A
Well I could see you here with me, but you were with another man yeah
 
Poruka
3.666
MERCYFUL FATE - Black Funeral (Melissa, 1983, København - Danmark)

King Diamond - vocal
Hank Shermann - guitars
Michael Denner - guitars
Timi Grabber-Hansen - bass
Kim Ruzz - drums


Guitar 1 x2
e|----------------------------------------|--------|
B|----------------------------------------|--------|
G|----------------------------------------|--------|
D|------7---------------------------------|-----4--|
A|--7---5---6----6----6----6----6----6----|--2--2--|
E|--5-------4-44-4-44-4-44-4-44-4-44-4-44-|--0-----|


Guitar 2
e|-----10-----------------------------------------|
B|-10-------9~~~~~~-------------------------------|
G|------------------------------------------------|
D|------------------------------------------------|
A|------------------------------------------------|
E|--------------------------------X\\\------------|


e|--------------------------------------|
B|--------------------------------------|
G|--------------------------------------|
D|--3----3----3----3----3----3--------4-|
A|--1-11-1-11-1-11-1-11-1-11-1-11--2--2-|
E|---------------------------------0----|

Bring....the black box to the altar...
e|------------------------------------------|
B|------------------------------------------|
G|------------------------------------------|
D|--3----3----3----3----3----3----3----5----|
A|--1-11-1-11-1-11-1-11-1-11-1-11-1-11-3-33-|
E|------------------------------------------|

And do the sign.....
e|-------------------------------------|
B|-------------------------------------|
G|-------------------------------------|
D|--7----7----7----7----7----7---------|
A|--5-55-5-55-5-55-5-55-5-55-5-55------|
E|--------------------------------4-3--|

All hail Satan.....
e|--------------------------------------|
B|--------------------------------------|
G|--------------------------------------|
D|--7----7----7----7----7----7--------4-|
A|--5-55-5-55-5-55-5-55-5-55-5-55--2--2-|
E|---------------------------------0----|

Yes hail Satan....
e|--------------------------------------|
B|--------------------------------------|
G|--------------------------------------|
D|--3----3----3----3----3----3--------4-|
A|--1-11-1-11-1-11-1-11-1-11-1-11--2--2-|
E|---------------------------------0----|

Lay down your swords
e|-------------------------------------|
B|-------------------------------------|
G|-------------------------------------|
D|--3----3----3----3----3----3----3--5-|
A|--1-11-1-11-1-11-1-11-1-11-1-11-1--3-|
E|-------------------------------------|

The evil star.....
e|--------------------------------------|
B|--------------------------------------|
G|--------------------------------------|
D|--7----7----7----7----7----7-----3----|
A|--5-55-5-55-5-55-5-55-5-55-5-55--1--3-|
E|------------------------------------1-|

e|-------------------------------------|
B|-------------------------------------|
G|-------------------------------------|
D|--5----5----5----5----5----5----5--7-|
A|--3-33-3-33-3-33-3-33-3-33-3-33-3--5-|
E|-------------------------------------|

It's a black funeral.....
e|------------------------------------------|
B|------------------------------------------|
G|------------------------------------------|
D|--4----4----4----4----4----4----4----4----|
A|--2-22-2-22-2-22-2-22-2-22-2-22-2-22-2-22-|
E|------------------------------------------|

e|---------------------------------------|
B|---------------------------------------|
G|---------------------------------------|
D|--5----5----5----5-2----2----2----2----|
A|--3-33-3-33-3-33-3-0-00-0-00-0-00-0-00-|
E|---------------------------------------|

She was a victim.........

e|----------------------------------------|
B|----------------------------------------|
G|----------------------------------------|
D|-----------8-7--------------------------|
A|-3-2-------6-5-------3-2-------5-6-5tr6-|
E|-1-0--0-0-------0-0--1-0--0-0-----------|

e|------------------------------------|
B|------------------------------------|
G|------------------------------------|
D|-----------8-7----------------------|
A|-3-2-------6-5-------3-2-------5--7-|
E|-1-0--0-0-------0-0--1-0--0-0--3--5-|

e|-----------------------------------------|
B|-----------------------------------------|
G|-----------------------------------------|
D|-----------8-7----------------(4-5-4tr5)-| --> Guitar 2
A|-3-2-------6-5-------3-2-------5-6-5tr6--|
E|-1-0--0-0-------0-0--1-0--0-0------------|

e|-------------------------------------|
B|-------------------------------------|
G|-------------------------------------|
D|-----------8-7-----------------6-7-8-|
A|-3-2-------6-5-------3-2-------4-5-6-|
E|-1-0--0-0-------0-0--1-0--0-0--------|


e|---------------------------------------|
B|---------------------------------------|
G|------------10-------------9-----------|
D|------9------8------9------7-------8-7-|
A|------7-------------7--------------6-5-|
E|--0-0---0-0----0-0----0-0-----0-0------|

e|-----------------------------|
B|-----------------------------|
G|-----------------------------|
D|------------------------5----|
A|--5-7-----7-5---5-7-----3-5--|
E|--3-5-5-5-5-3---3-5-5-5---3--|

e|-----------------------------|
B|-----------------------------|
G|-----------------------------|
D|---------------------------3-|
A|--5-7-----7-5---3-3-3-3-3--1-|
E|--3-5-5-5-5-3---1-1-1-1-1----|

e|----------------------------|
B|----------------------------|
G|----------------------------|
D|---4-4-4-------7---6--------|
A|-0-2-2-2-2-0-2-5---4-7-6-5--|
E|---------------------5-4-3--|


Solo [Hank Shermann]


e|-8--10-|-12-10-8-----10-8--------8-----------------------|
B|-------|----------12-------12-10----12-10-8--12-10-8-----|
G|-------|----------------------------------------------11-|
D|-------|-------------------------------------------------|
A|-------|-------------------------------------------------|
E|-------|-------------------------------------------------|
|

e|-12-13-|-15-13-12----13-12-------12----------------------|
B|-------|----------15-------15-13----15-13-12-15-13-12----|
G|-------|----------------------------------------------14-|
D|-------|-------------------------------------------------|
A|-------|-------------------------------------------------|
E|-------|-------------------------------------------------|


e|-------------------------------------------------|
B|-10-8--------------------------------------------|
G|-------11-9--12-11-9-----11-9--------9-----------|
D|----------------------12-------12-11----12-11-9--|
A|-------------------------------------------------|
E|-------------------------------------------------|


e|-------------------------------------------------|
B|-13-12-------------------------------------------|
G|-------14-12-16-14-12----14-12-------12----------|
D|----------------------16-------16-14----16-14-12-|
A|-------------------------------------------------|
E|-------------------------------------------------|


e|-------------------------------------------------|
B|-------------------------------------------------|
G|-------------------------------------------------|
D|-12-11-9-----11-9--------9-----------------------|
A|----------12-------12-11----12-11-9--12-11-9-----|
E|----------------------------------------------12-|
|


e|-------------------------------------------------|
B|-------------------------------------------------|
G|-------------------------------------------------|
D|-16-14-12----14-12-------12----------------------|
A|----------16-------16-14----16-14-12-16-14-12----|
E|----------------------------------------------16-|


e|----------------15-|
B|--------------r----|
G|--------------e----|
D|--------------s----|
A|-11-9---------t----|
E|-------12-9--------|
|

e|----------------12-|
B|--------------r----|
G|--------------e----|
D|--------------s----|
A|-14-12--------t----|
E|-------16-12-------|


e|-17-15h17p15----------15-17-15h17p15-|
B|-------------18-17-18----------------|
G|-------------------------------------|
D|-------------------------------------|
A|-------------------------------------|
E|-------------------------------------|
|

e|-13-12h13p12----------12-13-12h13p12-|
B|-------------15-14-15----------------|
G|-------------------------------------|
D|-------------------------------------|
A|-------------------------------------|
E|-------------------------------------|


e|----------15-17-19b20-(20)r19-|
B|-18-17-18---------------------|
G|------------------------------|
D|------------------------------|
A|------------------------------|
E|------------------------------|
|

e|----------12-13-15b17-(17)r15-|
B|-15-14-15---------------------|
G|------------------------------|
D|------------------------------|
A|------------------------------|
E|------------------------------|


e|-19b20-(20)r19-17-15-17-19-|
B|---------------------------|
G|---------------------------|
D|---------------------------|
A|---------------------------|
E|---------------------------|
|

e|-15b17-(17)r15-13-12-13-15-|
B|---------------------------|
G|---------------------------|
D|---------------------------|
A|---------------------------|
E|---------------------------|


e|-17-15h17p15----------|
B|-------------18-17-18-|
G|----------------------|
D|----------------------|
A|----------------------|
E|----------------------|
|


e|-13-12h13p12----------|
B|-------------15-14-15-|
G|----------------------|
D|----------------------|
A|----------------------|
E|----------------------|
 

W.A.S.P.

Poznat
Poruka
8.995
Dont_Break_The_Oath:
GP 4 je bolji, i mnogo je lakse skinuti pesmu, sa gore pomentuog sajta pesme su 100 % tacne, sto i nije tako cest slucaj sa ostalim sajtovima.
i ja koristim mysongbook ali kad tamo nema necega odem na 911. a da su 100% tacne nisi u pravu.....video sam gomilu tablatura sa greskama ali nije nista strasno
 

skrobi90

Zainteresovan član
Poruka
280
My Friends
Red Hot Chili Peppers
From the album One Hot Minute

tuning 1/2 step down
Intro (let all notes ring):

D Fmaj7 G C
e:----------0-------------0------------------------|
B:----------3-------------3------------------------|
G:------2-----------0-2---------------0-------020-0|
D:--0-----------0-3---------3-----0---------02---2-|
A:----------------------------2---------2-3--------|
E:-------------------------------------------------|


D Fmaj7 C G
e:----------0-------------0------------------------|
B:----------3-------------3------------------------|
G:------2-----------0-2-------------0-2---------0--| (repeat and
D:--0-----------0-3---------3---0-2----------0-----| improvize 2x)
A:----------------------------3---------3-2--------|
E:-------------------------------------------------|

Chorus (chords only, get the rhythm from the album)

C Am C D Am
e:---------------------|
B:--1---1---1---3---1--|
G:--0---2---0---0---2--|
D:--2---2---2---4---2--|
A:--3---0---3---5---0--|
E:---------------------|

Endpart (chords only):

E D C# C G F#5 F5
e:-----------------------------|
B:--7---5---4---3--------------|
G:--9---7---6---5--------------|
D:--9---7---6---5---5---4---3--|
A:--7---5---4---3---5---4---3--|
E:------------------3---2---1--|


Lyrics:

My friends are so depressed
I feel the question of your loneliness
Confide 'cause I'll be on your side
You know I will you know I will

Ex girlfriend called me up
Alone and desperate on the prison phone
They want to give her seven years
For being sad

Chorus:
I love all of you
Hurt by the cold
So hard and lonely too
When you don't know yourself

My friends are so distressed
And standing on the brink of emptiness
No words I know of to express
This emptiness

chorus

Imagine me tauhgt by tragedy
Release is peace
I heard a little girl
And what she said
Was something beautiful
To give your love
No matter what she said

chorus

------------------------------------------------------------------------
Subject: Red Hot Chili Peppers/ My friends Solo

This is the solo for My_Friends off One Hot Minute.
On the record these Chords are played underneath the solo to the verse rythym.

D/F# Fmaj7 G C
----0--------0-----3----0----------------
----3--------3-----3----1----------------
----2--------2-----0----0---------------
----0--------3-----0----2----------------
-------------0-----2----3---------------
-------------------3------------------

Solo:
--------------------------------------------------------------------
--------------------------------------------------------------------
--------------------------------------------------------------------
--------------------------------------------------------------------
--9--9--9--9--5h7--5/3--3h5--3/2--2--2--2h3/5-5-5-5-----------------
--------------------------------------------------------------------

--------------------------------------------------------------------
--------------------------------------------------------------------
--------------------------------------------------------------------
---------------7h9--7/5--5--5--5--5/12------------------------------
--9--9--9--9--------------------------------------------------------
--------------------------------------------------------------------
 

Top
  Blokirali ste reklame
Dragi prijatelju, nemojte da blokirate reklame - isključite Ad Blocker na Forumu, jer će tako mesto vaših susreta na Krstarici ostati besplatno za korišćenje.