Nejasno
Prikazujem rezultate 1 do 12 od 12

Tema: Nejasno

  1. #1
    Fizicar nije na forumu
    se mnogo promenila od kada je poslednji put bila ovde. :S
    Primećen član Fizicar (avatar)
    Učlanjen
    27.12.2005.
    Pol
    ženski
    Poruke
    573
    Reputaciona moć
    49

    Question Nejasno

    UVOD*:
    A F#m D E
    |-9-10-10--9-9--7-7-9-|--------------------|--------------------|-------------------|
    |---------------------|-7-7-7------7-7/9---|--------------------|-------------------|
    |---------------------|--------9-9-------9-|-7-7-7--6-6--7-7-/9-|---------------4-6/|
    |---------------------|--------------------|--------------------|-6-6-6--7-6--7-----|
    |---------------------|--------------------|--------------------|-------------------|
    |---------------------|--------------------|--------------------|-------------------|

    A D A/C#
    Dugo nisam vidio svoj rodni kraj
    Hm E
    Proljece je sada a mene obuze sjeta
    A D A/C#
    Ja ti pisem pismo stari prijatelju moj
    Hm E
    Daj mi reci sta ima novo, sve mi reci sto znas

    E A
    I dal jos svirate nocu pored rijeke
    F#m
    Sad je doslo lijepo vrijeme
    Hm E
    Pjevate li one nase pjesme
    A
    I dal ponekad sretnes moju dragu,
    F#m
    Jel jos uvijek onako lijepa
    Hm E
    Pita li za mene i dal me ceka

    Jutrom kad se budim cesto tuzan sam
    Noci su moje duge, pozdravi drustvo i druge
    Ja ti pisem pismo stari prijatelju moj
    Daj mi reci sta ima novo, sve mi reci o njoj

    I dal jos svirate nocu pored rijeke
    Sad je doslo lijepo vrijeme
    Pjevate li one nase pjesme
    I dal ponekad sretnes moju dragu,
    Jel jos uvijek onako lijepa
    Pita li za mene i dal me ceka
    Pisi mi sve!

    SOLO:
    pi- si mi sve!
    E A F#m
    -------------------|---------------------------|-----------------------------|
    -14----------14----|-----------17--------------|-----------------------------|
    -16B18-16B18-16R14-|-16B18~~~~-----18R16p14-16-|-18R16p14-------------14-----|
    -------------------|---------------------------|----------16~~~-14/16-----16-|
    -------------------|---------------------------|-----------------------------|
    -------------------|---------------------------|-----------------------------|

    D E
    |----------------------|---------------------------------------------|
    |-17B19~--17B19~~~~~~~-|--------------------------17B19--17----------|
    |----------------------|-18R16p14-16B18R16~~~~-16-----------19r18----|
    |----------------------|------------------------------------------19-|
    |----------------------|---------------------------------------------|
    |----------------------|---------------------------------------------|

    || A (ovaj dio se ponavlja)
    ||--------------------------------------------------|
    ||-17--15-15-14-14----------------------------14-15-|
    ||.----------------16-16-14-14-13-13----13-14-------|
    ||.----------------------------------16-------------|
    ||--------------------------------------------------|
    ||--------------------------------------------------|

    F#m
    |--------------------------------------------------|
    |-17--15-15-14-14----------------------------14-15-|
    |-----------------16-16-14-14-13----13-14-16-------|
    |--------------------------------16----------------|
    |--------------------------------------------------|
    |--------------------------------------------------|

    D
    |-15--14-14----------------------------------14-16-|
    |-----------17-17-15-15-14-14-------14-15-17-------|
    |-----------------------------16-16----------------|
    |--------------------------------------------------|
    |--------------------------------------------------|
    |--------------------------------------------------|

    E (kraj ponavljajuceg dijela) ||
    |-17--16-16-------------------------------------------------||
    |-----------19-19-17-17-17B19R17-17B19R17-17B19R17-17B18.75-||
    |----------------------------------------------------------.||
    |----------------------------------------------------------.|| ponovi i fade out
    |-----------------------------------------------------------||
    |-----------------------------------------------------------||



    SOLO GITARA ZA REFREN:

    i dal jos svirate... ...pjesme
    E A F#m D E
    -----------|------------------|-----------------|------------------|---------------
    -----------|------------------|-----------------|------------------|---------------
    -----------|-----2~~~-2/4/2---|-----------------|-----7~~~---------|---------------
    -----------|-2-2------------2-|-----4~~~-6--7-6-|-7-7------7-----4-|---------------
    -----------|-0-0--------------|-4-4-------------|-5-5--------5/7---|-2-2-----------
    ---0--2--4-|------------------|-2-2-------------|------------------|-0-0--0-2--2-4-


    da-li po-nekad... ...ceka
    E A F#m D E
    -----------|------------------|-----------------|------------------|----------------|
    -----------|------------------|-----------------|------------------|----------------|
    -----------|-----2~~~-2/4/2---|-----------------|-----7~~~---------|----------9-9-9-|
    -----------|-2-2------------2-|-----4~~~-6--7-6-|-7-7------7-----4-|----------9-9-9-|
    ------0--2-|-0-0--------------|-4-4-------------|-5-5--------5/7---|-2-2------7-7-7-|
    -4-4-------|------------------|-2-2-------------|------------------|-0-0--0-0-------|


    pisi mi sve!
    A
    |------------------|---------------------|--------------------|
    |------------------|---------------------|--------------------|
    |------------------|---------------------|-----------6/7-/6~~-|
    |------------------|---------------------|--------7--7/9-/7~~-|
    |------------0-----|--------0--4/5~-4~~~-|---7/9--------------|
    |--0--2--4---------|--0--2---------------|--------------------|


    Akordi:
    EADGHe
    ------
    A X02220
    D X00232
    A/C# X4222X - ili obicni A-dur
    Hm X24432
    F#m 244222
    E 022100


    Mozda je nekome ovo bez veze, ali ja sam morala da otvorim novu temu.
    Ovo gde se svira solo. Nikako ne mogu da provalim: 17B19R17
    Sta znaci B ispred 17 i R ispred 19?



  2. #2
    Iskusan Makijavelli (avatar)
    Učlanjen
    17.06.2006.
    Pol
    muški
    Lokacija
    ...........
    Poruke
    6.807
    Reputaciona moć
    111

    Podrazumevano Re: Nejasno

    e pa po nekoj logici zakljuchio bih sledece....poshto sviram klasichnu gitaru a iz nekih svojih primera bih zakljuchio sledece.....
    B=udarac(hammer),prsom leve ruke
    R=okidanje istim prstom
    recimo u primeru ako polje 17 drzhish kazhisprtom,polje 19udarish i istog trenutka okinesh domalim prstom dok kazhiprst i dalje drzhi 17 polje.....

  3. #3
    Fizicar nije na forumu
    se mnogo promenila od kada je poslednji put bila ovde. :S
    Primećen član Fizicar (avatar)
    Učlanjen
    27.12.2005.
    Pol
    ženski
    Poruke
    573
    Reputaciona moć
    49

    Podrazumevano Re: Nejasno

    aha ok.Hvala

  4. #4
    Buduća legenda Keeper (avatar)
    Učlanjen
    24.08.2003.
    Pol
    muški
    Lokacija
    izmedju dva zla.
    Poruke
    28.299
    Reputaciona moć
    344

    Podrazumevano Re: Nejasno

    B meni vishe lichi na "bend".... po nekoj logici alfabeta.
    shto bi znachilo saviti zhicu (nagore) na 17om pragu do tona koji je identichan onom na 19om pragu.
    shta znachi ono R pojma nemam.
    s obzirom kako izgleda ono tamo, izgleda da treba saviti zhicu na 18om pragu nadole do tona identichnom onom na 16om pragu.
    "Gospodo, život je kratak;
    i ako živimo, živimo da bismo gazili po glavama kraljeva."

  5. #5
    Iskusan Makijavelli (avatar)
    Učlanjen
    17.06.2006.
    Pol
    muški
    Lokacija
    ...........
    Poruke
    6.807
    Reputaciona moć
    111

    Podrazumevano Re: Nejasno

    e pa o5,da se izjasnim ja sviram klasichnu gitaru.....tako da kod nas je to malo drugachije....

  6. #6
    Buduća legenda Keeper (avatar)
    Učlanjen
    24.08.2003.
    Pol
    muški
    Lokacija
    izmedju dva zla.
    Poruke
    28.299
    Reputaciona moć
    344

    Podrazumevano Re: Nejasno

    za "B" sam siguran da je tako kako sam rekao, a za ovo nisam siguran.
    nek dechko poslusha tu pesmu pa cje videti dal je u pitanju udarac ili savijanje zhice. ;-)
    "Gospodo, život je kratak;
    i ako živimo, živimo da bismo gazili po glavama kraljeva."

  7. #7
    Buduća legenda Keeper (avatar)
    Učlanjen
    24.08.2003.
    Pol
    muški
    Lokacija
    izmedju dva zla.
    Poruke
    28.299
    Reputaciona moć
    344

    Podrazumevano Re: Nejasno

    tachnije necje videti nego cje chuti.
    "Gospodo, život je kratak;
    i ako živimo, živimo da bismo gazili po glavama kraljeva."

  8. #8
    Fizicar nije na forumu
    se mnogo promenila od kada je poslednji put bila ovde. :S
    Primećen član Fizicar (avatar)
    Učlanjen
    27.12.2005.
    Pol
    ženski
    Poruke
    573
    Reputaciona moć
    49

    Podrazumevano Re: Nejasno

    BTW ja sam zensko

  9. #9
    Iskusan Makijavelli (avatar)
    Učlanjen
    17.06.2006.
    Pol
    muški
    Lokacija
    ...........
    Poruke
    6.807
    Reputaciona moć
    111

    Podrazumevano Re: Nejasno

    pa ja sam predpostavljao,leptir te je odao......

  10. #10
    Fizicar nije na forumu
    se mnogo promenila od kada je poslednji put bila ovde. :S
    Primećen član Fizicar (avatar)
    Učlanjen
    27.12.2005.
    Pol
    ženski
    Poruke
    573
    Reputaciona moć
    49

    Podrazumevano Re: Nejasno

    Citat Original postavio Makijavelli
    e pa po nekoj logici zakljuchio bih sledece....poshto sviram klasichnu gitaru a iz nekih svojih primera bih zakljuchio sledece.....
    B=udarac(hammer),prsom leve ruke
    R=okidanje istim prstom
    recimo u primeru ako polje 17 drzhish kazhisprtom,polje 19udarish i istog trenutka okinesh domalim prstom dok kazhiprst i dalje drzhi 17 polje.....
    a jel mora kaziprstom?

  11. #11
    Primećen član vladimirr (avatar)
    Učlanjen
    24.05.2006.
    Pol
    muški
    Lokacija
    Beograd
    Poruke
    690
    Reputaciona moć
    49

    Podrazumevano Re: Nejasno

    Citat Original postavio Fizicar
    a jel mora kaziprstom?
    Pa tako je najlakse,ta kombinacija moze josh jedino da se svira srednjim i malim prstom ali to ti ne bih preporucio..
    i ja mislim da je b bend

  12. #12
    Primećen član Ketchua (avatar)
    Učlanjen
    28.01.2006.
    Pol
    muški
    Lokacija
    The L Train...
    Poruke
    705
    Reputaciona moć
    51

    Podrazumevano Re: Nejasno

    pa ako je b bend onda je r release...

Slične teme

  1. Graficka, nejasno mi!
    Autor PetrolBoy u forumu Hardver
    Odgovora: 11
    Poslednja poruka: 14.08.2008., 19:33
  2. Nešto mi je malo nejasno...
    Autor mackica ns u forumu Ljubav i seks
    Odgovora: 47
    Poslednja poruka: 26.04.2005., 11:24
  3. Meni je ovo malo nejasno,pa objasnite...
    Autor Guliverr u forumu Istorija
    Odgovora: 11
    Poslednja poruka: 13.12.2004., 02:26

Pravila za slanje poruka

  • Ne možete kreirati novu temu
  • Ne možete poslati odgovor
  • Ne možete dodati priloge
  • Ne možete prepraviti svoju poruku
  •